FAQ

Achtung diese Datei ist noch im Aufbau! Under Construction!
Was ist den eigentlich?:

Mensur

OLGA

Tabulatur



Mensur nennt man das millimetergenaue Verhältnis der Gitarre , gemessen wird sie vom Sattel bis zum 12. Bund und anschliessend verdoppelt. Zum Beispiel hat eine 54er Les Paul eine Mensur von 625 mm.

OLGA ...ist keine Russin.
Es ist die Kurzform für OnLine Guitar Archive, einer Webseite im Internet von und für Gitarristen. 

Tabulatur (kurz TAB) nennt man einen aufgeschriebenen Gitarrensong. Ähnlich der Notatur, der Notenschrift der anderen
Musiker. Mit Hilfe einer Tabulatur ist es dem Gitarristen schnell (schneller?) möglich einen Song mitzuspielen.
Darüber streiten sich jedoch die Geister. Sie besteht in der Regel aus 6 Linien , die die 6 Saiten der Gitarre darstellen.

e|--------------------------|
b|--------------------------|
g|-------4------------------|
D|-----3--------------------|
A|---2----------------------|
E|-1------------------------|

Die Zahlen darin geben die Bundposition auf der jeweiligen Saite an. In Tabulatursongbüchern gibt es immer eine
Gebrauchsanweisung zur Tabulatur.
Schaue dir eine Tabulatur auf Computern (z.Beispiel vom OLGA) immer mit einem Font mit fester Breite
(zum Beispiel Courier) an. Sonst sieht die Tabulatur so aus:

e|--------------------------|
b|--------------------------|
g|-------4------------------|
D|-----3--------------------|
A|---2----------------------|
E|-1------------------------|

Alles ist etwas verschoben.